ISO-10303-21;
HEADER;
/* Generated by software containing ST-Developer
 * from STEP Tools, Inc. (www.steptools.com) 
 */
/* OPTION: using custom renumber hook */

FILE_DESCRIPTION(
/* description */ ('STEP AP242',
'CAx-IF Rec.Pracs.---Representation and Presentation of Product Manufa
cturing Information (PMI)---4.0---2014-10-13',
'CAx-IF Rec.Pracs.---3D Tessellated Geometry---0.4---2014-09-14','2;1'),

/* implementation_level */ '2;1');

FILE_NAME(
/* name */ '67646c854adeaf7533214ee3',
/* time_stamp */ '2024-12-19T18:57:10Z',
/* author */ (''),
/* organization */ (''),
/* preprocessor_version */ 'ST-DEVELOPER v20',
/* originating_system */ 'ONSHAPE BY PTC INC, 1.191',
/* authorisation */ '  ');

FILE_SCHEMA (('AP242_MANAGED_MODEL_BASED_3D_ENGINEERING_MIM_LF { 1 0 10303 442 1 1 4 }'));
ENDSEC;

DATA;
#10=SHAPE_REPRESENTATION_RELATIONSHIP('','',#164,#11);
#11=ADVANCED_BREP_SHAPE_REPRESENTATION('',(#162),#275);
#12=CYLINDRICAL_SURFACE('',#172,0.01);
#13=CYLINDRICAL_SURFACE('',#181,0.00385);
#14=CYLINDRICAL_SURFACE('',#184,0.003);
#15=LINE('',#243,#23);
#16=LINE('',#247,#24);
#17=LINE('',#252,#25);
#18=LINE('',#253,#26);
#19=LINE('',#257,#27);
#20=LINE('',#258,#28);
#21=LINE('',#260,#29);
#22=LINE('',#265,#30);
#23=VECTOR('',#197,1.);
#24=VECTOR('',#200,1.);
#25=VECTOR('',#205,1.);
#26=VECTOR('',#206,1.);
#27=VECTOR('',#209,1.);
#28=VECTOR('',#210,1.);
#29=VECTOR('',#213,1.);
#30=VECTOR('',#220,1.);
#31=ORIENTED_EDGE('',*,*,#65,.F.);
#32=ORIENTED_EDGE('',*,*,#66,.F.);
#33=ORIENTED_EDGE('',*,*,#67,.T.);
#34=ORIENTED_EDGE('',*,*,#68,.T.);
#35=ORIENTED_EDGE('',*,*,#69,.T.);
#36=ORIENTED_EDGE('',*,*,#70,.T.);
#37=ORIENTED_EDGE('',*,*,#71,.T.);
#38=ORIENTED_EDGE('',*,*,#72,.T.);
#39=ORIENTED_EDGE('',*,*,#67,.F.);
#40=ORIENTED_EDGE('',*,*,#73,.T.);
#41=ORIENTED_EDGE('',*,*,#74,.F.);
#42=ORIENTED_EDGE('',*,*,#75,.T.);
#43=ORIENTED_EDGE('',*,*,#69,.F.);
#44=ORIENTED_EDGE('',*,*,#76,.T.);
#45=ORIENTED_EDGE('',*,*,#66,.T.);
#46=ORIENTED_EDGE('',*,*,#74,.T.);
#47=ORIENTED_EDGE('',*,*,#77,.T.);
#48=ORIENTED_EDGE('',*,*,#78,.T.);
#49=ORIENTED_EDGE('',*,*,#77,.F.);
#50=ORIENTED_EDGE('',*,*,#73,.F.);
#51=ORIENTED_EDGE('',*,*,#70,.F.);
#52=ORIENTED_EDGE('',*,*,#75,.F.);
#53=ORIENTED_EDGE('',*,*,#79,.F.);
#54=ORIENTED_EDGE('',*,*,#71,.F.);
#55=ORIENTED_EDGE('',*,*,#80,.F.);
#56=ORIENTED_EDGE('',*,*,#79,.T.);
#57=ORIENTED_EDGE('',*,*,#76,.F.);
#58=ORIENTED_EDGE('',*,*,#68,.F.);
#59=ORIENTED_EDGE('',*,*,#72,.F.);
#60=ORIENTED_EDGE('',*,*,#81,.F.);
#61=ORIENTED_EDGE('',*,*,#65,.T.);
#62=ORIENTED_EDGE('',*,*,#81,.T.);
#63=ORIENTED_EDGE('',*,*,#80,.T.);
#64=ORIENTED_EDGE('',*,*,#78,.F.);
#65=EDGE_CURVE('',#82,#82,#95,.T.);
#66=EDGE_CURVE('',#83,#83,#96,.T.);
#67=EDGE_CURVE('',#84,#85,#97,.T.);
#68=EDGE_CURVE('',#85,#86,#15,.T.);
#69=EDGE_CURVE('',#86,#87,#98,.T.);
#70=EDGE_CURVE('',#87,#84,#16,.T.);
#71=EDGE_CURVE('',#88,#89,#99,.T.);
#72=EDGE_CURVE('',#89,#85,#17,.T.);
#73=EDGE_CURVE('',#84,#90,#18,.F.);
#74=EDGE_CURVE('',#91,#90,#100,.T.);
#75=EDGE_CURVE('',#91,#87,#19,.T.);
#76=EDGE_CURVE('',#86,#88,#20,.F.);
#77=EDGE_CURVE('',#90,#91,#21,.T.);
#78=EDGE_CURVE('',#92,#92,#101,.T.);
#79=EDGE_CURVE('',#89,#88,#22,.T.);
#80=EDGE_CURVE('',#93,#93,#102,.T.);
#81=EDGE_CURVE('',#94,#94,#103,.T.);
#82=VERTEX_POINT('',#236);
#83=VERTEX_POINT('',#238);
#84=VERTEX_POINT('',#241);
#85=VERTEX_POINT('',#242);
#86=VERTEX_POINT('',#244);
#87=VERTEX_POINT('',#246);
#88=VERTEX_POINT('',#250);
#89=VERTEX_POINT('',#251);
#90=VERTEX_POINT('',#254);
#91=VERTEX_POINT('',#256);
#92=VERTEX_POINT('',#263);
#93=VERTEX_POINT('',#268);
#94=VERTEX_POINT('',#271);
#95=CIRCLE('',#167,0.00385);
#96=CIRCLE('',#168,0.01);
#97=CIRCLE('',#170,0.01);
#98=CIRCLE('',#171,0.01);
#99=CIRCLE('',#173,0.01);
#100=CIRCLE('',#174,0.01);
#101=CIRCLE('',#177,0.003);
#102=CIRCLE('',#180,0.003);
#103=CIRCLE('',#182,0.00385);
#104=EDGE_LOOP('',(#31));
#105=EDGE_LOOP('',(#32));
#106=EDGE_LOOP('',(#33,#34,#35,#36));
#107=EDGE_LOOP('',(#37,#38,#39,#40,#41,#42,#43,#44));
#108=EDGE_LOOP('',(#45));
#109=EDGE_LOOP('',(#46,#47));
#110=EDGE_LOOP('',(#48));
#111=EDGE_LOOP('',(#49,#50,#51,#52));
#112=EDGE_LOOP('',(#53,#54));
#113=EDGE_LOOP('',(#55));
#114=EDGE_LOOP('',(#56,#57,#58,#59));
#115=EDGE_LOOP('',(#60));
#116=EDGE_LOOP('',(#61));
#117=EDGE_LOOP('',(#62));
#118=EDGE_LOOP('',(#63));
#119=EDGE_LOOP('',(#64));
#120=FACE_BOUND('',#104,.T.);
#121=FACE_BOUND('',#105,.T.);
#122=FACE_BOUND('',#106,.T.);
#123=FACE_BOUND('',#107,.T.);
#124=FACE_BOUND('',#108,.T.);
#125=FACE_BOUND('',#109,.T.);
#126=FACE_BOUND('',#110,.T.);
#127=FACE_BOUND('',#111,.T.);
#128=FACE_BOUND('',#112,.T.);
#129=FACE_BOUND('',#113,.T.);
#130=FACE_BOUND('',#114,.T.);
#131=FACE_BOUND('',#115,.T.);
#132=FACE_BOUND('',#116,.T.);
#133=FACE_BOUND('',#117,.T.);
#134=FACE_BOUND('',#118,.T.);
#135=FACE_BOUND('',#119,.T.);
#136=PLANE('',#166);
#137=PLANE('',#169);
#138=PLANE('',#175);
#139=PLANE('',#176);
#140=PLANE('',#178);
#141=PLANE('',#179);
#142=PLANE('',#183);
#143=ADVANCED_FACE('',(#120,#121),#136,.F.);
#144=ADVANCED_FACE('',(#122),#137,.F.);
#145=ADVANCED_FACE('',(#123,#124),#12,.T.);
#146=ADVANCED_FACE('',(#125),#138,.T.);
#147=ADVANCED_FACE('',(#126,#127),#139,.F.);
#148=ADVANCED_FACE('',(#128),#140,.F.);
#149=ADVANCED_FACE('',(#129,#130),#141,.F.);
#150=ADVANCED_FACE('',(#131,#132),#13,.F.);
#151=ADVANCED_FACE('',(#133),#142,.T.);
#152=ADVANCED_FACE('',(#134,#135),#14,.F.);
#153=CLOSED_SHELL('',(#143,#144,#145,#146,#147,#148,#149,#150,#151,#152));
#154=STYLED_ITEM('',(#155),#162);
#155=PRESENTATION_STYLE_ASSIGNMENT((#156));
#156=SURFACE_STYLE_USAGE(.BOTH.,#157);
#157=SURFACE_SIDE_STYLE('',(#158));
#158=SURFACE_STYLE_FILL_AREA(#159);
#159=FILL_AREA_STYLE('',(#160));
#160=FILL_AREA_STYLE_COLOUR('',#161);
#161=COLOUR_RGB('',0.231372549019608,0.380392156862745,0.705882352941177);
#162=MANIFOLD_SOLID_BREP('verin bout',#153);
#163=SHAPE_DEFINITION_REPRESENTATION(#280,#164);
#164=SHAPE_REPRESENTATION('verin bout',(#165),#275);
#165=AXIS2_PLACEMENT_3D('',#233,#185,#186);
#166=AXIS2_PLACEMENT_3D('',#234,#187,#188);
#167=AXIS2_PLACEMENT_3D('',#235,#189,#190);
#168=AXIS2_PLACEMENT_3D('',#237,#191,#192);
#169=AXIS2_PLACEMENT_3D('',#239,#193,#194);
#170=AXIS2_PLACEMENT_3D('',#240,#195,#196);
#171=AXIS2_PLACEMENT_3D('',#245,#198,#199);
#172=AXIS2_PLACEMENT_3D('',#248,#201,#202);
#173=AXIS2_PLACEMENT_3D('',#249,#203,#204);
#174=AXIS2_PLACEMENT_3D('',#255,#207,#208);
#175=AXIS2_PLACEMENT_3D('',#259,#211,#212);
#176=AXIS2_PLACEMENT_3D('',#261,#214,#215);
#177=AXIS2_PLACEMENT_3D('',#262,#216,#217);
#178=AXIS2_PLACEMENT_3D('',#264,#218,#219);
#179=AXIS2_PLACEMENT_3D('',#266,#221,#222);
#180=AXIS2_PLACEMENT_3D('',#267,#223,#224);
#181=AXIS2_PLACEMENT_3D('',#269,#225,#226);
#182=AXIS2_PLACEMENT_3D('',#270,#227,#228);
#183=AXIS2_PLACEMENT_3D('',#272,#229,#230);
#184=AXIS2_PLACEMENT_3D('',#273,#231,#232);
#185=DIRECTION('',(0.,0.,1.));
#186=DIRECTION('',(1.,0.,0.));
#187=DIRECTION('',(-2.39272203583008E-16,0.,1.));
#188=DIRECTION('',(1.,0.,2.39272203583008E-16));
#189=DIRECTION('',(2.39272203583008E-16,0.,-1.));
#190=DIRECTION('',(-1.,0.,-2.39272203583008E-16));
#191=DIRECTION('',(-2.39272203583008E-16,0.,1.));
#192=DIRECTION('',(1.,0.,2.39272203583008E-16));
#193=DIRECTION('',(2.39272203583008E-16,0.,-1.));
#194=DIRECTION('',(-1.,0.,-2.39272203583008E-16));
#195=DIRECTION('',(-2.39272203583008E-16,0.,1.));
#196=DIRECTION('',(1.,0.,2.39272203583008E-16));
#197=DIRECTION('',(1.,0.,2.39272203583008E-16));
#198=DIRECTION('',(-2.39272203583008E-16,0.,1.));
#199=DIRECTION('',(1.,0.,2.39272203583008E-16));
#200=DIRECTION('',(-1.,0.,-2.39272203583008E-16));
#201=DIRECTION('',(-2.39272203583008E-16,0.,1.));
#202=DIRECTION('',(1.,0.,2.39272203583008E-16));
#203=DIRECTION('',(0.,0.,-1.));
#204=DIRECTION('',(-1.,0.,0.));
#205=DIRECTION('',(-2.39272203583008E-16,0.,1.));
#206=DIRECTION('',(-2.39272203583008E-16,0.,1.));
#207=DIRECTION('',(0.,0.,1.));
#208=DIRECTION('',(1.,0.,0.));
#209=DIRECTION('',(-2.39272203583008E-16,0.,1.));
#210=DIRECTION('',(-2.39272203583008E-16,0.,1.));
#211=DIRECTION('',(0.,0.,1.));
#212=DIRECTION('',(1.,0.,0.));
#213=DIRECTION('',(1.,0.,0.));
#214=DIRECTION('',(0.,-1.,0.));
#215=DIRECTION('',(1.,0.,0.));
#216=DIRECTION('',(0.,-1.,0.));
#217=DIRECTION('',(0.,0.,-1.));
#218=DIRECTION('',(0.,0.,-1.));
#219=DIRECTION('',(-1.,0.,0.));
#220=DIRECTION('',(1.,0.,0.));
#221=DIRECTION('',(0.,1.,0.));
#222=DIRECTION('',(-1.,0.,0.));
#223=DIRECTION('',(0.,-1.,0.));
#224=DIRECTION('',(0.,0.,-1.));
#225=DIRECTION('',(2.39272203583008E-16,0.,-1.));
#226=DIRECTION('',(-1.,0.,-2.39272203583008E-16));
#227=DIRECTION('',(2.39272203583008E-16,0.,-1.));
#228=DIRECTION('',(-1.,0.,-2.39272203583008E-16));
#229=DIRECTION('',(2.39272203583008E-16,0.,-1.));
#230=DIRECTION('',(1.,0.,2.39272203583008E-16));
#231=DIRECTION('',(0.,-1.,0.));
#232=DIRECTION('',(0.,0.,-1.));
#233=CARTESIAN_POINT('',(0.,0.,0.));
#234=CARTESIAN_POINT('',(-0.0482272011041641,0.,-0.0359967886805535));
#235=CARTESIAN_POINT('',(-0.0432272011041641,-2.35744508835865E-19,-0.0359967886805535));
#236=CARTESIAN_POINT('',(-0.0470772011041641,-2.35744508835865E-19,-0.0359967886805535));
#237=CARTESIAN_POINT('',(-0.0432272011041641,0.,-0.0359967886805535));
#238=CARTESIAN_POINT('',(-0.0332272011041641,0.,-0.0359967886805535));
#239=CARTESIAN_POINT('',(-0.0482272011041641,0.,-0.00699678868055344));
#240=CARTESIAN_POINT('',(-0.0432272011041641,0.,-0.00699678868055343));
#241=CARTESIAN_POINT('',(-0.0512272011041641,0.006,-0.00699678868055343));
#242=CARTESIAN_POINT('',(-0.0515121271750473,-0.0056,-0.00699678868055343));
#243=CARTESIAN_POINT('',(-0.0482272011041641,-0.0056,-0.00699678868055344));
#244=CARTESIAN_POINT('',(-0.0349422750332809,-0.0056,-0.00699678868055343));
#245=CARTESIAN_POINT('',(-0.0432272011041641,0.,-0.00699678868055343));
#246=CARTESIAN_POINT('',(-0.0352272011041641,0.006,-0.00699678868055343));
#247=CARTESIAN_POINT('',(-0.0482272011041641,0.006,-0.00699678868055344));
#248=CARTESIAN_POINT('',(-0.0432272011041641,0.,-0.0214967886805534));
#249=CARTESIAN_POINT('',(-0.0432272011041641,0.,-0.0217806342989206));
#250=CARTESIAN_POINT('',(-0.0349422750332809,-0.0056,-0.0217806342989206));
#251=CARTESIAN_POINT('',(-0.0515121271750473,-0.0056,-0.0217806342989206));
#252=CARTESIAN_POINT('',(-0.0515121271750473,-0.0056,-0.0214967886805534));
#253=CARTESIAN_POINT('',(-0.0512272011041641,0.006,-0.0214967886805534));
#254=CARTESIAN_POINT('',(-0.0512272011041641,0.006,-0.0219123475253582));
#255=CARTESIAN_POINT('',(-0.0432272011041641,0.,-0.0219123475253582));
#256=CARTESIAN_POINT('',(-0.0352272011041641,0.006,-0.0219123475253582));
#257=CARTESIAN_POINT('',(-0.0352272011041641,0.006,-0.0214967886805534));
#258=CARTESIAN_POINT('',(-0.0349422750332809,-0.0056,-0.0214967886805534));
#259=CARTESIAN_POINT('',(-0.042545635253191,0.006,-0.0219123475253582));
#260=CARTESIAN_POINT('',(-0.042545635253191,0.006,-0.0219123475253582));
#261=CARTESIAN_POINT('',(-0.042545635253191,0.006,-0.0109561737626791));
#262=CARTESIAN_POINT('',(-0.0432019494473934,0.006,-0.014388711489737));
#263=CARTESIAN_POINT('',(-0.0432019494473934,0.006,-0.017388711489737));
#264=CARTESIAN_POINT('',(-0.0432558860629797,-0.0056,-0.0217806342989206));
#265=CARTESIAN_POINT('',(-0.0432558860629797,-0.0056,-0.0217806342989206));
#266=CARTESIAN_POINT('',(-0.0432558860629797,-0.0056,-0.0128520077560097));
#267=CARTESIAN_POINT('',(-0.0432019494473934,-0.0056,-0.014388711489737));
#268=CARTESIAN_POINT('',(-0.0432019494473934,-0.0056,-0.017388711489737));
#269=CARTESIAN_POINT('',(-0.0432272011041641,-2.35744508835865E-19,-0.0219967886805535));
#270=CARTESIAN_POINT('',(-0.0432272011041641,-2.35744508835865E-19,-0.0219967886805535));
#271=CARTESIAN_POINT('',(-0.0470772011041641,-2.35744508835865E-19,-0.0219967886805535));
#272=CARTESIAN_POINT('',(-0.0432272011041641,0.,-0.0219967886805535));
#273=CARTESIAN_POINT('',(-0.0432019494473934,0.0194,-0.014388711489737));
#274=MECHANICAL_DESIGN_GEOMETRIC_PRESENTATION_REPRESENTATION('',(#154),
#275);
#275=(
GEOMETRIC_REPRESENTATION_CONTEXT(3)
GLOBAL_UNCERTAINTY_ASSIGNED_CONTEXT((#276))
GLOBAL_UNIT_ASSIGNED_CONTEXT((#279,#278,#277))
REPRESENTATION_CONTEXT('verin bout','TOP_LEVEL_ASSEMBLY_PART')
);
#276=UNCERTAINTY_MEASURE_WITH_UNIT(LENGTH_MEASURE(1.E-8),#279,
'DISTANCE_ACCURACY_VALUE','Maximum Tolerance applied to model');
#277=(
NAMED_UNIT(*)
SI_UNIT($,.STERADIAN.)
SOLID_ANGLE_UNIT()
);
#278=(
NAMED_UNIT(*)
PLANE_ANGLE_UNIT()
SI_UNIT($,.RADIAN.)
);
#279=(
LENGTH_UNIT()
NAMED_UNIT(*)
SI_UNIT($,.METRE.)
);
#280=PRODUCT_DEFINITION_SHAPE('','',#281);
#281=PRODUCT_DEFINITION('','',#283,#282);
#282=PRODUCT_DEFINITION_CONTEXT('',#289,'design');
#283=PRODUCT_DEFINITION_FORMATION_WITH_SPECIFIED_SOURCE('','',#285,
 .NOT_KNOWN.);
#284=PRODUCT_RELATED_PRODUCT_CATEGORY('','',(#285));
#285=PRODUCT('verin bout','verin bout','verin bout',(#287));
#286=PRODUCT_CATEGORY('','');
#287=PRODUCT_CONTEXT('',#289,'mechanical');
#288=APPLICATION_PROTOCOL_DEFINITION('international standard',
'ap242_managed_model_based_3d_engineering',2011,#289);
#289=APPLICATION_CONTEXT('managed model based 3d engineering');
ENDSEC;
END-ISO-10303-21;
